  0
SECTION
  2
ENTITIES
  0
POLYLINE
  8
0
 66
     1
 10
0.0
 20
0.0
 30
0.0
  0
VERTEX
  8
0
 10
-.01 
 20
 13.75 
 30
 2.65 
  0
VERTEX
  8
0
 10
-.01 
 20
 13.77 
 30
 0 
  0
VERTEX
  8
0
 10
-.01 
 20
 7.53 
 30
 1.18 
  0
VERTEX
  8
0
 10
-.01 
 20
 2.57 
 30
 2.18 
  0
VERTEX
  8
0
 10
 .01 
 20
 2.57 
 30
 2.18 
  0
VERTEX
  8
0
 10
 .01 
 20
 7.53 
 30
 1.18 
  0
VERTEX
  8
0
 10
 .01 
 20
 13.77 
 30
 0 
  0
VERTEX
  8
0
 10
 .01 
 20
 13.75 
 30
 2.65 
  0
SEQEND
  0
POLYLINE
  8
0
 66
     1
 10
0.0
 20
0.0
 30
0.0
  0
VERTEX
  8
0
 10
-11.29 
 20
 13.13 
 30
 22.04333 
  0
VERTEX
  8
0
 10
-14.94 
 20
 12.55 
 30
 22.04333 
  0
VERTEX
  8
0
 10
-11.93 
 20
 4.68 
 30
 22.04333 
  0
VERTEX
  8
0
 10
 0 
 20
 .28 
 30
 22.04333 
  0
VERTEX
  8
0
 10
 0 
 20
 .28 
 30
 22.04333 
  0
VERTEX
  8
0
 10
 11.93 
 20
 4.68 
 30
 22.04333 
  0
VERTEX
  8
0
 10
 14.94 
 20
 12.55 
 30
 22.04333 
  0
VERTEX
  8
0
 10
 11.29 
 20
 13.13 
 30
 22.04333 
  0
SEQEND
  0
POLYLINE
  8
0
 66
     1
 10
0.0
 20
0.0
 30
0.0
  0
VERTEX
  8
0
 10
-17.99 
 20
 12.3 
 30
 49.94051 
  0
VERTEX
  8
0
 10
-20.58 
 20
 11.38 
 30
 49.94051 
  0
VERTEX
  8
0
 10
-17.5 
 20
 2.31 
 30
 49.94051 
  0
VERTEX
  8
0
 10
 0 
 20
 0 
 30
 49.94051 
  0
VERTEX
  8
0
 10
 0 
 20
 0 
 30
 49.94051 
  0
VERTEX
  8
0
 10
 17.5 
 20
 2.31 
 30
 49.94051 
  0
VERTEX
  8
0
 10
 20.58 
 20
 11.38 
 30
 49.94051 
  0
VERTEX
  8
0
 10
 17.99 
 20
 12.3 
 30
 49.94051 
  0
SEQEND
  0
POLYLINE
  8
0
 66
     1
 10
0.0
 20
0.0
 30
0.0
  0
VERTEX
  8
0
 10
-17.07 
 20
 11.26 
 30
 68.3252 
  0
VERTEX
  8
0
 10
-19.19 
 20
 10.43 
 30
 68.3252 
  0
VERTEX
  8
0
 10
-17.08 
 20
 3.13 
 30
 68.3252 
  0
VERTEX
  8
0
 10
 0 
 20
 .38 
 30
 68.3252 
  0
VERTEX
  8
0
 10
 0 
 20
 .38 
 30
 68.3252 
  0
VERTEX
  8
0
 10
 17.08 
 20
 3.13 
 30
 68.3252 
  0
VERTEX
  8
0
 10
 19.19 
 20
 10.43 
 30
 68.3252 
  0
VERTEX
  8
0
 10
 17.07 
 20
 11.26 
 30
 68.3252 
  0
SEQEND
  0
POLYLINE
  8
0
 66
     1
 10
0.0
 20
0.0
 30
0.0
  0
VERTEX
  8
0
 10
-15.33 
 20
 10.71 
 30
 87.44 
  0
VERTEX
  8
0
 10
-16.25 
 20
 9.68 
 30
 90.46 
  0
VERTEX
  8
0
 10
-14.61 
 20
 5.06 
 30
 90.46 
  0
VERTEX
  8
0
 10
 0 
 20
 1.3 
 30
 88.81 
  0
VERTEX
  8
0
 10
 0 
 20
 1.3 
 30
 88.81 
  0
VERTEX
  8
0
 10
 14.61 
 20
 5.06 
 30
 90.46 
  0
VERTEX
  8
0
 10
 16.25 
 20
 9.68 
 30
 90.46 
  0
VERTEX
  8
0
 10
 15.33 
 20
 10.71 
 30
 87.44 
  0
SEQEND
  0
POLYLINE
  8
0
 66
     1
 10
0.0
 20
0.0
 30
0.0
  0
VERTEX
  8
0
 10
-.01 
 20
 2.57 
 30
 2.18 
  0
VERTEX
  8
0
 10
-5.92985569535243E-03 
 20
 1.66239132413609 
 30
 8.90111 
  0
VERTEX
  8
0
 10
-2.39225679061274E-03 
 20
 .857764402416462 
 30
 15.62222 
  0
VERTEX
  8
0
 10
 0 
 20
 .28 
 30
 22.04333 
  0
VERTEX
  8
0
 10
 1.25219694171916E-03 
 20
-.122285164770814 
 30
 31.44239 
  0
VERTEX
  8
0
 10
 7.91431716573572E-04 
 20
-.142767908833415 
 30
 40.84145 
  0
VERTEX
  8
0
 10
 0 
 20
 0 
 30
 49.94051 
  0
VERTEX
  8
0
 10
-1.86946973886191E-04 
 20
 .104455728228995 
 30
 56.16874 
  0
VERTEX
  8
0
 10
-1.25530958607949E-04 
 20
 .223759899078806 
 30
 62.39697 
  0
VERTEX
  8
0
 10
 0 
 20
 .38 
 30
 68.3252 
  0
VERTEX
  8
0
 10
 6.77818519802975E-05 
 20
 .63982803074293 
 30
 75.2534666666667 
  0
VERTEX
  8
0
 10
 5.27918440428428E-05 
 20
 .962337450018316 
 30
 82.1817333333333 
  0
VERTEX
  8
0
 10
 0 
 20
 1.3 
 30
 88.81 
  0
VERTEX
  8
0
 10
 0 
 20
 1.3 
 30
 88.81 
  0
VERTEX
  8
0
 10
-5.27918440428428E-05 
 20
 .962337450018316 
 30
 82.1817333333333 
  0
VERTEX
  8
0
 10
-6.77818519802975E-05 
 20
 .63982803074293 
 30
 75.2534666666667 
  0
VERTEX
  8
0
 10
 0 
 20
 .38 
 30
 68.3252 
  0
VERTEX
  8
0
 10
 1.25530958607949E-04 
 20
 .223759899078806 
 30
 62.39697 
  0
VERTEX
  8
0
 10
 1.86946973886191E-04 
 20
 .104455728228995 
 30
 56.16874 
  0
VERTEX
  8
0
 10
 0 
 20
 0 
 30
 49.94051 
  0
VERTEX
  8
0
 10
-7.91431716573572E-04 
 20
-.142767908833415 
 30
 40.84145 
  0
VERTEX
  8
0
 10
-1.25219694171916E-03 
 20
-.122285164770814 
 30
 31.44239 
  0
VERTEX
  8
0
 10
 0 
 20
 .28 
 30
 22.04333 
  0
VERTEX
  8
0
 10
 2.39225679061274E-03 
 20
 .857764402416462 
 30
 15.62222 
  0
VERTEX
  8
0
 10
 5.92985569535243E-03 
 20
 1.66239132413609 
 30
 8.90111 
  0
VERTEX
  8
0
 10
 .01 
 20
 2.57 
 30
 2.18 
  0
VERTEX
  8
0
 10
-.01 
 20
 2.57 
 30
 2.18 
  0
SEQEND
  0
POLYLINE
  8
0
 66
     1
 10
0.0
 20
0.0
 30
0.0
  0
VERTEX
  8
0
 10
-.01 
 20
 7.53 
 30
 1.18 
  0
VERTEX
  8
0
 10
-4.49272920637394 
 20
 6.54604972044252 
 30
 8.23444333333333 
  0
VERTEX
  8
0
 10
-8.62516857617163 
 20
 5.57781458058603 
 30
 15.2888866666667 
  0
VERTEX
  8
0
 10
-11.93 
 20
 4.68 
 30
 22.04333 
  0
VERTEX
  8
0
 10
-15.0875049850035 
 20
 3.53263294738241 
 30
 31.44239 
  0
VERTEX
  8
0
 10
-16.8122574855263 
 20
 2.67343045234895 
 30
 40.84145 
  0
VERTEX
  8
0
 10
-17.5 
 20
 2.31 
 30
 49.94051 
  0
VERTEX
  8
0
 10
-17.5914862743851 
 20
 2.40015935755822 
 30
 56.16874 
  0
VERTEX
  8
0
 10
-17.4341668314332 
 20
 2.7095580506232 
 30
 62.39697 
  0
VERTEX
  8
0
 10
-17.08 
 20
 3.13 
 30
 68.3252 
  0
VERTEX
  8
0
 10
-16.3956416126385 
 20
 3.74033511271435 
 30
 75.8034666666667 
  0
VERTEX
  8
0
 10
-15.5281845179208 
 20
 4.40154765691416 
 30
 83.2817333333333 
  0
VERTEX
  8
0
 10
-14.61 
 20
 5.06 
 30
 90.46 
  0
VERTEX
  8
0
 10
 14.61 
 20
 5.06 
 30
 90.46 
  0
VERTEX
  8
0
 10
 15.5281845179208 
 20
 4.40154765691416 
 30
 83.2817333333333 
  0
VERTEX
  8
0
 10
 16.3956416126385 
 20
 3.74033511271435 
 30
 75.8034666666667 
  0
VERTEX
  8
0
 10
 17.08 
 20
 3.13 
 30
 68.3252 
  0
VERTEX
  8
0
 10
 17.4341668314332 
 20
 2.7095580506232 
 30
 62.39697 
  0
VERTEX
  8
0
 10
 17.5914862743851 
 20
 2.40015935755822 
 30
 56.16874 
  0
VERTEX
  8
0
 10
 17.5 
 20
 2.31 
 30
 49.94051 
  0
VERTEX
  8
0
 10
 16.8122574855263 
 20
 2.67343045234895 
 30
 40.84145 
  0
VERTEX
  8
0
 10
 15.0875049850035 
 20
 3.53263294738241 
 30
 31.44239 
  0
VERTEX
  8
0
 10
 11.93 
 20
 4.68 
 30
 22.04333 
  0
VERTEX
  8
0
 10
 8.62516857617163 
 20
 5.57781458058603 
 30
 15.2888866666667 
  0
VERTEX
  8
0
 10
 4.49272920637394 
 20
 6.54604972044252 
 30
 8.23444333333333 
  0
VERTEX
  8
0
 10
 .01 
 20
 7.53 
 30
 1.18 
  0
VERTEX
  8
0
 10
-.01 
 20
 7.53 
 30
 1.18 
  0
SEQEND
  0
POLYLINE
  8
0
 66
     1
 10
0.0
 20
0.0
 30
0.0
  0
VERTEX
  8
0
 10
-.01 
 20
 13.77 
 30
 0 
  0
VERTEX
  8
0
 10
-5.67964614030916 
 20
 13.3294528210614 
 30
 7.44777666666667 
  0
VERTEX
  8
0
 10
-10.8658483907809 
 20
 12.9108227906208 
 30
 14.8955533333333 
  0
VERTEX
  8
0
 10
-14.94 
 20
 12.55 
 30
 22.04333 
  0
VERTEX
  8
0
 10
-18.4642838337455 
 20
 12.1499558479554 
 30
 31.44239 
  0
VERTEX
  8
0
 10
-20.1848467598113 
 20
 11.7796110601801 
 30
 40.84145 
  0
VERTEX
  8
0
 10
-20.58 
 20
 11.38 
 30
 49.94051 
  0
VERTEX
  8
0
 10
-20.3491121014046 
 20
 11.0582477672886 
 30
 56.16874 
  0
VERTEX
  8
0
 10
-19.8396591206531 
 20
 10.7242508780592 
 30
 62.39697 
  0
VERTEX
  8
0
 10
-19.19 
 20
 10.43 
 30
 68.3252 
  0
VERTEX
  8
0
 10
-18.2576107251413 
 20
 10.127637733096 
 30
 75.8034666666667 
  0
VERTEX
  8
0
 10
-17.2509582122675 
 20
 9.885002602291 
 30
 83.2817333333333 
  0
VERTEX
  8
0
 10
-16.25 
 20
 9.68 
 30
 90.46 
  0
VERTEX
  8
0
 10
 16.25 
 20
 9.68 
 30
 90.46 
  0
VERTEX
  8
0
 10
 17.2509582122675 
 20
 9.885002602291 
 30
 83.2817333333333 
  0
VERTEX
  8
0
 10
 18.2576107251413 
 20
 10.127637733096 
 30
 75.8034666666667 
  0
VERTEX
  8
0
 10
 19.19 
 20
 10.43 
 30
 68.3252 
  0
VERTEX
  8
0
 10
 19.8396591206531 
 20
 10.7242508780592 
 30
 62.39697 
  0
VERTEX
  8
0
 10
 20.3491121014046 
 20
 11.0582477672886 
 30
 56.16874 
  0
VERTEX
  8
0
 10
 20.58 
 20
 11.38 
 30
 49.94051 
  0
VERTEX
  8
0
 10
 20.1848467598113 
 20
 11.7796110601801 
 30
 40.84145 
  0
VERTEX
  8
0
 10
 18.4642838337455 
 20
 12.1499558479554 
 30
 31.44239 
  0
VERTEX
  8
0
 10
 14.94 
 20
 12.55 
 30
 22.04333 
  0
VERTEX
  8
0
 10
 10.8658483907809 
 20
 12.9108227906208 
 30
 14.8955533333333 
  0
VERTEX
  8
0
 10
 5.67964614030916 
 20
 13.3294528210614 
 30
 7.44777666666667 
  0
VERTEX
  8
0
 10
 .01 
 20
 13.77 
 30
 0 
  0
VERTEX
  8
0
 10
-.01 
 20
 13.77 
 30
 0 
  0
SEQEND
  0
POLYLINE
  8
0
 66
     1
 10
0.0
 20
0.0
 30
0.0
  0
VERTEX
  8
0
 10
-.01 
 20
 13.75 
 30
 2.65 
  0
VERTEX
  8
0
 10
-4.16039498864026 
 20
 13.5232144870949 
 30
 9.21444333333333 
  0
VERTEX
  8
0
 10
-8.05284304708105 
 20
 13.3095672697601 
 30
 15.7788866666667 
  0
VERTEX
  8
0
 10
-11.29 
 20
 13.13 
 30
 22.04333 
  0
VERTEX
  8
0
 10
-14.9220879074814 
 20
 12.9067782100082 
 30
 31.44239 
  0
VERTEX
  8
0
 10
-17.1168287400995 
 20
 12.6596224442629 
 30
 40.84145 
  0
VERTEX
  8
0
 10
-17.99 
 20
 12.3 
 30
 49.94051 
  0
VERTEX
  8
0
 10
-17.9605978160664 
 20
 11.9534571328412 
 30
 56.16874 
  0
VERTEX
  8
0
 10
-17.5856149313017 
 20
 11.5783418843147 
 30
 62.39697 
  0
VERTEX
  8
0
 10
-17.07 
 20
 11.26 
 30
 68.3252 
  0
VERTEX
  8
0
 10
-16.4802835210066 
 20
 11.0090965190091 
 30
 74.7968 
  0
VERTEX
  8
0
 10
-15.8913172547554 
 20
 10.8372910729869 
 30
 81.2684 
  0
VERTEX
  8
0
 10
-15.33 
 20
 10.71 
 30
 87.44 
  0
VERTEX
  8
0
 10
 15.33 
 20
 10.71 
 30
 87.44 
  0
VERTEX
  8
0
 10
 15.8913172547554 
 20
 10.8372910729869 
 30
 81.2684 
  0
VERTEX
  8
0
 10
 16.4802835210066 
 20
 11.0090965190091 
 30
 74.7968 
  0
VERTEX
  8
0
 10
 17.07 
 20
 11.26 
 30
 68.3252 
  0
VERTEX
  8
0
 10
 17.5856149313017 
 20
 11.5783418843147 
 30
 62.39697 
  0
VERTEX
  8
0
 10
 17.9605978160664 
 20
 11.9534571328412 
 30
 56.16874 
  0
VERTEX
  8
0
 10
 17.99 
 20
 12.3 
 30
 49.94051 
  0
VERTEX
  8
0
 10
 17.1168287400995 
 20
 12.6596224442629 
 30
 40.84145 
  0
VERTEX
  8
0
 10
 14.9220879074814 
 20
 12.9067782100082 
 30
 31.44239 
  0
VERTEX
  8
0
 10
 11.29 
 20
 13.13 
 30
 22.04333 
  0
VERTEX
  8
0
 10
 8.05284304708105 
 20
 13.3095672697601 
 30
 15.7788866666667 
  0
VERTEX
  8
0
 10
 4.16039498864026 
 20
 13.5232144870949 
 30
 9.21444333333333 
  0
VERTEX
  8
0
 10
 .01 
 20
 13.75 
 30
 2.65 
  0
VERTEX
  8
0
 10
-.01 
 20
 13.75 
 30
 2.65 
  0
SEQEND
  0
POLYLINE
  8
0
 66
     1
 10
0.0
 20
0.0
 30
0.0
  0
VERTEX
  8
0
 10
 43.81 
 20
 13.75 
 30
-.01 
  0
VERTEX
  8
0
 10
 41.16 
 20
 13.77 
 30
-.01 
  0
VERTEX
  8
0
 10
 42.34 
 20
 7.53 
 30
-.01 
  0
VERTEX
  8
0
 10
 43.34 
 20
 2.57 
 30
-.01 
  0
VERTEX
  8
0
 10
 43.34 
 20
 2.57 
 30
 .01 
  0
VERTEX
  8
0
 10
 42.34 
 20
 7.53 
 30
 .01 
  0
VERTEX
  8
0
 10
 41.16 
 20
 13.77 
 30
 .01 
  0
VERTEX
  8
0
 10
 43.81 
 20
 13.75 
 30
 .01 
  0
SEQEND
  0
POLYLINE
  8
0
 66
     1
 10
0.0
 20
0.0
 30
0.0
  0
VERTEX
  8
0
 10
 63.20333 
 20
 13.13 
 30
-11.29 
  0
VERTEX
  8
0
 10
 63.20333 
 20
 12.55 
 30
-14.94 
  0
VERTEX
  8
0
 10
 63.20333 
 20
 4.68 
 30
-11.93 
  0
VERTEX
  8
0
 10
 63.20333 
 20
 .28 
 30
 0 
  0
VERTEX
  8
0
 10
 63.20333 
 20
 .28 
 30
 0 
  0
VERTEX
  8
0
 10
 63.20333 
 20
 4.68 
 30
 11.93 
  0
VERTEX
  8
0
 10
 63.20333 
 20
 12.55 
 30
 14.94 
  0
VERTEX
  8
0
 10
 63.20333 
 20
 13.13 
 30
 11.29 
  0
SEQEND
  0
POLYLINE
  8
0
 66
     1
 10
0.0
 20
0.0
 30
0.0
  0
VERTEX
  8
0
 10
 91.10051 
 20
 12.3 
 30
-17.99 
  0
VERTEX
  8
0
 10
 91.10051 
 20
 11.38 
 30
-20.58 
  0
VERTEX
  8
0
 10
 91.10051 
 20
 2.31 
 30
-17.5 
  0
VERTEX
  8
0
 10
 91.10051 
 20
 0 
 30
 0 
  0
VERTEX
  8
0
 10
 91.10051 
 20
 0 
 30
 0 
  0
VERTEX
  8
0
 10
 91.10051 
 20
 2.31 
 30
 17.5 
  0
VERTEX
  8
0
 10
 91.10051 
 20
 11.38 
 30
 20.58 
  0
VERTEX
  8
0
 10
 91.10051 
 20
 12.3 
 30
 17.99 
  0
SEQEND
  0
POLYLINE
  8
0
 66
     1
 10
0.0
 20
0.0
 30
0.0
  0
VERTEX
  8
0
 10
 109.4852 
 20
 11.26 
 30
-17.07 
  0
VERTEX
  8
0
 10
 109.4852 
 20
 10.43 
 30
-19.19 
  0
VERTEX
  8
0
 10
 109.4852 
 20
 3.13 
 30
-17.08 
  0
VERTEX
  8
0
 10
 109.4852 
 20
 .38 
 30
 0 
  0
VERTEX
  8
0
 10
 109.4852 
 20
 .38 
 30
 0 
  0
VERTEX
  8
0
 10
 109.4852 
 20
 3.13 
 30
 17.08 
  0
VERTEX
  8
0
 10
 109.4852 
 20
 10.43 
 30
 19.19 
  0
VERTEX
  8
0
 10
 109.4852 
 20
 11.26 
 30
 17.07 
  0
SEQEND
  0
POLYLINE
  8
0
 66
     1
 10
0.0
 20
0.0
 30
0.0
  0
VERTEX
  8
0
 10
 128.6 
 20
 10.71 
 30
-15.33 
  0
VERTEX
  8
0
 10
 131.62 
 20
 9.68 
 30
-16.25 
  0
VERTEX
  8
0
 10
 131.62 
 20
 5.06 
 30
-14.61 
  0
VERTEX
  8
0
 10
 129.97 
 20
 1.3 
 30
 0 
  0
VERTEX
  8
0
 10
 129.97 
 20
 1.3 
 30
 0 
  0
VERTEX
  8
0
 10
 131.62 
 20
 5.06 
 30
 14.61 
  0
VERTEX
  8
0
 10
 131.62 
 20
 9.68 
 30
 16.25 
  0
VERTEX
  8
0
 10
 128.6 
 20
 10.71 
 30
 15.33 
  0
SEQEND
  0
POLYLINE
  8
0
 66
     1
 10
0.0
 20
0.0
 30
0.0
  0
VERTEX
  8
0
 10
 43.34 
 20
 2.57 
 30
-.01 
  0
VERTEX
  8
0
 10
 50.06111 
 20
 1.66239132413609 
 30
-5.92985569535243E-03 
  0
VERTEX
  8
0
 10
 56.78222 
 20
 .857764402416462 
 30
-2.39225679061274E-03 
  0
VERTEX
  8
0
 10
 63.20333 
 20
 .28 
 30
 0 
  0
VERTEX
  8
0
 10
 72.60239 
 20
-.122285164770814 
 30
 1.25219694171916E-03 
  0
VERTEX
  8
0
 10
 82.00145 
 20
-.142767908833415 
 30
 7.91431716573572E-04 
  0
VERTEX
  8
0
 10
 91.10051 
 20
 0 
 30
 0 
  0
VERTEX
  8
0
 10
 97.32874 
 20
 .104455728228995 
 30
-1.86946973886191E-04 
  0
VERTEX
  8
0
 10
 103.55697 
 20
 .223759899078806 
 30
-1.25530958607949E-04 
  0
VERTEX
  8
0
 10
 109.4852 
 20
 .38 
 30
 0 
  0
VERTEX
  8
0
 10
 116.413466666667 
 20
 .63982803074293 
 30
 6.77818519802975E-05 
  0
VERTEX
  8
0
 10
 123.341733333333 
 20
 .962337450018316 
 30
 5.27918440428428E-05 
  0
VERTEX
  8
0
 10
 129.97 
 20
 1.3 
 30
 0 
  0
VERTEX
  8
0
 10
 129.97 
 20
 1.3 
 30
 0 
  0
VERTEX
  8
0
 10
 123.341733333333 
 20
 .962337450018316 
 30
-5.27918440428428E-05 
  0
VERTEX
  8
0
 10
 116.413466666667 
 20
 .63982803074293 
 30
-6.77818519802975E-05 
  0
VERTEX
  8
0
 10
 109.4852 
 20
 .38 
 30
 0 
  0
VERTEX
  8
0
 10
 103.55697 
 20
 .223759899078806 
 30
 1.25530958607949E-04 
  0
VERTEX
  8
0
 10
 97.32874 
 20
 .104455728228995 
 30
 1.86946973886191E-04 
  0
VERTEX
  8
0
 10
 91.10051 
 20
 0 
 30
 0 
  0
VERTEX
  8
0
 10
 82.00145 
 20
-.142767908833415 
 30
-7.91431716573572E-04 
  0
VERTEX
  8
0
 10
 72.60239 
 20
-.122285164770814 
 30
-1.25219694171916E-03 
  0
VERTEX
  8
0
 10
 63.20333 
 20
 .28 
 30
 0 
  0
VERTEX
  8
0
 10
 56.78222 
 20
 .857764402416462 
 30
 2.39225679061274E-03 
  0
VERTEX
  8
0
 10
 50.06111 
 20
 1.66239132413609 
 30
 5.92985569535243E-03 
  0
VERTEX
  8
0
 10
 43.34 
 20
 2.57 
 30
 .01 
  0
VERTEX
  8
0
 10
 43.34 
 20
 2.57 
 30
-.01 
  0
SEQEND
  0
POLYLINE
  8
0
 66
     1
 10
0.0
 20
0.0
 30
0.0
  0
VERTEX
  8
0
 10
 42.34 
 20
 7.53 
 30
-.01 
  0
VERTEX
  8
0
 10
 49.3944433333333 
 20
 6.54604972044252 
 30
-4.49272920637394 
  0
VERTEX
  8
0
 10
 56.4488866666667 
 20
 5.57781458058603 
 30
-8.62516857617163 
  0
VERTEX
  8
0
 10
 63.20333 
 20
 4.68 
 30
-11.93 
  0
VERTEX
  8
0
 10
 72.60239 
 20
 3.53263294738241 
 30
-15.0875049850035 
  0
VERTEX
  8
0
 10
 82.00145 
 20
 2.67343045234895 
 30
-16.8122574855263 
  0
VERTEX
  8
0
 10
 91.10051 
 20
 2.31 
 30
-17.5 
  0
VERTEX
  8
0
 10
 97.32874 
 20
 2.40015935755822 
 30
-17.5914862743851 
  0
VERTEX
  8
0
 10
 103.55697 
 20
 2.7095580506232 
 30
-17.4341668314332 
  0
VERTEX
  8
0
 10
 109.4852 
 20
 3.13 
 30
-17.08 
  0
VERTEX
  8
0
 10
 116.963466666667 
 20
 3.74033511271435 
 30
-16.3956416126385 
  0
VERTEX
  8
0
 10
 124.441733333333 
 20
 4.40154765691416 
 30
-15.5281845179208 
  0
VERTEX
  8
0
 10
 131.62 
 20
 5.06 
 30
-14.61 
  0
VERTEX
  8
0
 10
 131.62 
 20
 5.06 
 30
 14.61 
  0
VERTEX
  8
0
 10
 124.441733333333 
 20
 4.40154765691416 
 30
 15.5281845179208 
  0
VERTEX
  8
0
 10
 116.963466666667 
 20
 3.74033511271435 
 30
 16.3956416126385 
  0
VERTEX
  8
0
 10
 109.4852 
 20
 3.13 
 30
 17.08 
  0
VERTEX
  8
0
 10
 103.55697 
 20
 2.7095580506232 
 30
 17.4341668314332 
  0
VERTEX
  8
0
 10
 97.32874 
 20
 2.40015935755822 
 30
 17.5914862743851 
  0
VERTEX
  8
0
 10
 91.10051 
 20
 2.31 
 30
 17.5 
  0
VERTEX
  8
0
 10
 82.00145 
 20
 2.67343045234895 
 30
 16.8122574855263 
  0
VERTEX
  8
0
 10
 72.60239 
 20
 3.53263294738241 
 30
 15.0875049850035 
  0
VERTEX
  8
0
 10
 63.20333 
 20
 4.68 
 30
 11.93 
  0
VERTEX
  8
0
 10
 56.4488866666667 
 20
 5.57781458058603 
 30
 8.62516857617163 
  0
VERTEX
  8
0
 10
 49.3944433333333 
 20
 6.54604972044252 
 30
 4.49272920637394 
  0
VERTEX
  8
0
 10
 42.34 
 20
 7.53 
 30
 .01 
  0
VERTEX
  8
0
 10
 42.34 
 20
 7.53 
 30
-.01 
  0
SEQEND
  0
POLYLINE
  8
0
 66
     1
 10
0.0
 20
0.0
 30
0.0
  0
VERTEX
  8
0
 10
 41.16 
 20
 13.77 
 30
-.01 
  0
VERTEX
  8
0
 10
 48.6077766666667 
 20
 13.3294528210614 
 30
-5.67964614030916 
  0
VERTEX
  8
0
 10
 56.0555533333333 
 20
 12.9108227906208 
 30
-10.8658483907809 
  0
VERTEX
  8
0
 10
 63.20333 
 20
 12.55 
 30
-14.94 
  0
VERTEX
  8
0
 10
 72.60239 
 20
 12.1499558479554 
 30
-18.4642838337455 
  0
VERTEX
  8
0
 10
 82.00145 
 20
 11.7796110601801 
 30
-20.1848467598113 
  0
VERTEX
  8
0
 10
 91.10051 
 20
 11.38 
 30
-20.58 
  0
VERTEX
  8
0
 10
 97.32874 
 20
 11.0582477672886 
 30
-20.3491121014046 
  0
VERTEX
  8
0
 10
 103.55697 
 20
 10.7242508780592 
 30
-19.8396591206531 
  0
VERTEX
  8
0
 10
 109.4852 
 20
 10.43 
 30
-19.19 
  0
VERTEX
  8
0
 10
 116.963466666667 
 20
 10.127637733096 
 30
-18.2576107251413 
  0
VERTEX
  8
0
 10
 124.441733333333 
 20
 9.885002602291 
 30
-17.2509582122675 
  0
VERTEX
  8
0
 10
 131.62 
 20
 9.68 
 30
-16.25 
  0
VERTEX
  8
0
 10
 131.62 
 20
 9.68 
 30
 16.25 
  0
VERTEX
  8
0
 10
 124.441733333333 
 20
 9.885002602291 
 30
 17.2509582122675 
  0
VERTEX
  8
0
 10
 116.963466666667 
 20
 10.127637733096 
 30
 18.2576107251413 
  0
VERTEX
  8
0
 10
 109.4852 
 20
 10.43 
 30
 19.19 
  0
VERTEX
  8
0
 10
 103.55697 
 20
 10.7242508780592 
 30
 19.8396591206531 
  0
VERTEX
  8
0
 10
 97.32874 
 20
 11.0582477672886 
 30
 20.3491121014046 
  0
VERTEX
  8
0
 10
 91.10051 
 20
 11.38 
 30
 20.58 
  0
VERTEX
  8
0
 10
 82.00145 
 20
 11.7796110601801 
 30
 20.1848467598113 
  0
VERTEX
  8
0
 10
 72.60239 
 20
 12.1499558479554 
 30
 18.4642838337455 
  0
VERTEX
  8
0
 10
 63.20333 
 20
 12.55 
 30
 14.94 
  0
VERTEX
  8
0
 10
 56.0555533333333 
 20
 12.9108227906208 
 30
 10.8658483907809 
  0
VERTEX
  8
0
 10
 48.6077766666667 
 20
 13.3294528210614 
 30
 5.67964614030916 
  0
VERTEX
  8
0
 10
 41.16 
 20
 13.77 
 30
 .01 
  0
VERTEX
  8
0
 10
 41.16 
 20
 13.77 
 30
-.01 
  0
SEQEND
  0
POLYLINE
  8
0
 66
     1
 10
0.0
 20
0.0
 30
0.0
  0
VERTEX
  8
0
 10
 43.81 
 20
 13.75 
 30
-.01 
  0
VERTEX
  8
0
 10
 50.3744433333333 
 20
 13.5232144870949 
 30
-4.16039498864026 
  0
VERTEX
  8
0
 10
 56.9388866666667 
 20
 13.3095672697601 
 30
-8.05284304708105 
  0
VERTEX
  8
0
 10
 63.20333 
 20
 13.13 
 30
-11.29 
  0
VERTEX
  8
0
 10
 72.60239 
 20
 12.9067782100082 
 30
-14.9220879074814 
  0
VERTEX
  8
0
 10
 82.00145 
 20
 12.6596224442629 
 30
-17.1168287400995 
  0
VERTEX
  8
0
 10
 91.10051 
 20
 12.3 
 30
-17.99 
  0
VERTEX
  8
0
 10
 97.32874 
 20
 11.9534571328412 
 30
-17.9605978160664 
  0
VERTEX
  8
0
 10
 103.55697 
 20
 11.5783418843147 
 30
-17.5856149313017 
  0
VERTEX
  8
0
 10
 109.4852 
 20
 11.26 
 30
-17.07 
  0
VERTEX
  8
0
 10
 115.9568 
 20
 11.0090965190091 
 30
-16.4802835210066 
  0
VERTEX
  8
0
 10
 122.4284 
 20
 10.8372910729869 
 30
-15.8913172547554 
  0
VERTEX
  8
0
 10
 128.6 
 20
 10.71 
 30
-15.33 
  0
VERTEX
  8
0
 10
 128.6 
 20
 10.71 
 30
 15.33 
  0
VERTEX
  8
0
 10
 122.4284 
 20
 10.8372910729869 
 30
 15.8913172547554 
  0
VERTEX
  8
0
 10
 115.9568 
 20
 11.0090965190091 
 30
 16.4802835210066 
  0
VERTEX
  8
0
 10
 109.4852 
 20
 11.26 
 30
 17.07 
  0
VERTEX
  8
0
 10
 103.55697 
 20
 11.5783418843147 
 30
 17.5856149313017 
  0
VERTEX
  8
0
 10
 97.32874 
 20
 11.9534571328412 
 30
 17.9605978160664 
  0
VERTEX
  8
0
 10
 91.10051 
 20
 12.3 
 30
 17.99 
  0
VERTEX
  8
0
 10
 82.00145 
 20
 12.6596224442629 
 30
 17.1168287400995 
  0
VERTEX
  8
0
 10
 72.60239 
 20
 12.9067782100082 
 30
 14.9220879074814 
  0
VERTEX
  8
0
 10
 63.20333 
 20
 13.13 
 30
 11.29 
  0
VERTEX
  8
0
 10
 56.9388866666667 
 20
 13.3095672697601 
 30
 8.05284304708105 
  0
VERTEX
  8
0
 10
 50.3744433333333 
 20
 13.5232144870949 
 30
 4.16039498864026 
  0
VERTEX
  8
0
 10
 43.81 
 20
 13.75 
 30
 .01 
  0
VERTEX
  8
0
 10
 43.81 
 20
 13.75 
 30
-.01 
  0
SEQEND
  0
POLYLINE
  8
0
 66
     1
 10
0.0
 20
0.0
 30
0.0
  0
VERTEX
  8
0
 10
 43.81 
 20
 61.73 
 30
 13.75 
  0
VERTEX
  8
0
 10
 41.16 
 20
 61.73 
 30
 13.77 
  0
VERTEX
  8
0
 10
 42.34 
 20
 61.73 
 30
 7.53 
  0
VERTEX
  8
0
 10
 43.34 
 20
 61.73 
 30
 2.57 
  0
VERTEX
  8
0
 10
 43.34 
 20
 61.75 
 30
 2.57 
  0
VERTEX
  8
0
 10
 42.34 
 20
 61.75 
 30
 7.53 
  0
VERTEX
  8
0
 10
 41.16 
 20
 61.75 
 30
 13.77 
  0
VERTEX
  8
0
 10
 43.81 
 20
 61.75 
 30
 13.75 
  0
SEQEND
  0
POLYLINE
  8
0
 66
     1
 10
0.0
 20
0.0
 30
0.0
  0
VERTEX
  8
0
 10
 63.20333 
 20
 50.45 
 30
 13.13 
  0
VERTEX
  8
0
 10
 63.20333 
 20
 46.8 
 30
 12.55 
  0
VERTEX
  8
0
 10
 63.20333 
 20
 49.81 
 30
 4.68 
  0
VERTEX
  8
0
 10
 63.20333 
 20
 61.74 
 30
 .28 
  0
VERTEX
  8
0
 10
 63.20333 
 20
 61.74 
 30
 .28 
  0
VERTEX
  8
0
 10
 63.20333 
 20
 73.67 
 30
 4.68 
  0
VERTEX
  8
0
 10
 63.20333 
 20
 76.68 
 30
 12.55 
  0
VERTEX
  8
0
 10
 63.20333 
 20
 73.03 
 30
 13.13 
  0
SEQEND
  0
POLYLINE
  8
0
 66
     1
 10
0.0
 20
0.0
 30
0.0
  0
VERTEX
  8
0
 10
 91.10051 
 20
 43.75 
 30
 12.3 
  0
VERTEX
  8
0
 10
 91.10051 
 20
 41.16 
 30
 11.38 
  0
VERTEX
  8
0
 10
 91.10051 
 20
 44.24 
 30
 2.31 
  0
VERTEX
  8
0
 10
 91.10051 
 20
 61.74 
 30
 0 
  0
VERTEX
  8
0
 10
 91.10051 
 20
 61.74 
 30
 0 
  0
VERTEX
  8
0
 10
 91.10051 
 20
 79.24 
 30
 2.31 
  0
VERTEX
  8
0
 10
 91.10051 
 20
 82.32 
 30
 11.38 
  0
VERTEX
  8
0
 10
 91.10051 
 20
 79.73 
 30
 12.3 
  0
SEQEND
  0
POLYLINE
  8
0
 66
     1
 10
0.0
 20
0.0
 30
0.0
  0
VERTEX
  8
0
 10
 109.4852 
 20
 44.67 
 30
 11.26 
  0
VERTEX
  8
0
 10
 109.4852 
 20
 42.55 
 30
 10.43 
  0
VERTEX
  8
0
 10
 109.4852 
 20
 44.66 
 30
 3.13 
  0
VERTEX
  8
0
 10
 109.4852 
 20
 61.74 
 30
 .38 
  0
VERTEX
  8
0
 10
 109.4852 
 20
 61.74 
 30
 .38 
  0
VERTEX
  8
0
 10
 109.4852 
 20
 78.82 
 30
 3.13 
  0
VERTEX
  8
0
 10
 109.4852 
 20
 80.93 
 30
 10.43 
  0
VERTEX
  8
0
 10
 109.4852 
 20
 78.81 
 30
 11.26 
  0
SEQEND
  0
POLYLINE
  8
0
 66
     1
 10
0.0
 20
0.0
 30
0.0
  0
VERTEX
  8
0
 10
 128.6 
 20
 46.41 
 30
 10.71 
  0
VERTEX
  8
0
 10
 131.62 
 20
 45.49 
 30
 9.68 
  0
VERTEX
  8
0
 10
 131.62 
 20
 47.13 
 30
 5.06 
  0
VERTEX
  8
0
 10
 129.97 
 20
 61.74 
 30
 1.3 
  0
VERTEX
  8
0
 10
 129.97 
 20
 61.74 
 30
 1.3 
  0
VERTEX
  8
0
 10
 131.62 
 20
 76.35 
 30
 5.06 
  0
VERTEX
  8
0
 10
 131.62 
 20
 77.99 
 30
 9.68 
  0
VERTEX
  8
0
 10
 128.6 
 20
 77.07 
 30
 10.71 
  0
SEQEND
  0
POLYLINE
  8
0
 66
     1
 10
0.0
 20
0.0
 30
0.0
  0
VERTEX
  8
0
 10
 43.34 
 20
 61.73 
 30
 2.57 
  0
VERTEX
  8
0
 10
 50.06111 
 20
 61.7340701443047 
 30
 1.66239132413609 
  0
VERTEX
  8
0
 10
 56.78222 
 20
 61.7376077432094 
 30
 .857764402416462 
  0
VERTEX
  8
0
 10
 63.20333 
 20
 61.74 
 30
 .28 
  0
VERTEX
  8
0
 10
 72.60239 
 20
 61.7412521969417 
 30
-.122285164770814 
  0
VERTEX
  8
0
 10
 82.00145 
 20
 61.7407914317166 
 30
-.142767908833415 
  0
VERTEX
  8
0
 10
 91.10051 
 20
 61.74 
 30
 0 
  0
VERTEX
  8
0
 10
 97.32874 
 20
 61.7398130530261 
 30
 .104455728228995 
  0
VERTEX
  8
0
 10
 103.55697 
 20
 61.7398744690414 
 30
 .223759899078806 
  0
VERTEX
  8
0
 10
 109.4852 
 20
 61.74 
 30
 .38 
  0
VERTEX
  8
0
 10
 116.413466666667 
 20
 61.740067781852 
 30
 .63982803074293 
  0
VERTEX
  8
0
 10
 123.341733333333 
 20
 61.740052791844 
 30
 .962337450018316 
  0
VERTEX
  8
0
 10
 129.97 
 20
 61.74 
 30
 1.3 
  0
VERTEX
  8
0
 10
 129.97 
 20
 61.74 
 30
 1.3 
  0
VERTEX
  8
0
 10
 123.341733333333 
 20
 61.739947208156 
 30
 .962337450018316 
  0
VERTEX
  8
0
 10
 116.413466666667 
 20
 61.739932218148 
 30
 .63982803074293 
  0
VERTEX
  8
0
 10
 109.4852 
 20
 61.74 
 30
 .38 
  0
VERTEX
  8
0
 10
 103.55697 
 20
 61.7401255309586 
 30
 .223759899078806 
  0
VERTEX
  8
0
 10
 97.32874 
 20
 61.7401869469739 
 30
 .104455728228995 
  0
VERTEX
  8
0
 10
 91.10051 
 20
 61.74 
 30
 0 
  0
VERTEX
  8
0
 10
 82.00145 
 20
 61.7392085682834 
 30
-.142767908833415 
  0
VERTEX
  8
0
 10
 72.60239 
 20
 61.7387478030583 
 30
-.122285164770814 
  0
VERTEX
  8
0
 10
 63.20333 
 20
 61.74 
 30
 .28 
  0
VERTEX
  8
0
 10
 56.78222 
 20
 61.7423922567906 
 30
 .857764402416462 
  0
VERTEX
  8
0
 10
 50.06111 
 20
 61.7459298556953 
 30
 1.66239132413609 
  0
VERTEX
  8
0
 10
 43.34 
 20
 61.75 
 30
 2.57 
  0
VERTEX
  8
0
 10
 43.34 
 20
 61.73 
 30
 2.57 
  0
SEQEND
  0
POLYLINE
  8
0
 66
     1
 10
0.0
 20
0.0
 30
0.0
  0
VERTEX
  8
0
 10
 42.34 
 20
 61.73 
 30
 7.53 
  0
VERTEX
  8
0
 10
 49.3944433333333 
 20
 57.2472707936261 
 30
 6.54604972044252 
  0
VERTEX
  8
0
 10
 56.4488866666667 
 20
 53.1148314238284 
 30
 5.57781458058603 
  0
VERTEX
  8
0
 10
 63.20333 
 20
 49.81 
 30
 4.68 
  0
VERTEX
  8
0
 10
 72.60239 
 20
 46.6524950149965 
 30
 3.53263294738241 
  0
VERTEX
  8
0
 10
 82.00145 
 20
 44.9277425144737 
 30
 2.67343045234895 
  0
VERTEX
  8
0
 10
 91.10051 
 20
 44.24 
 30
 2.31 
  0
VERTEX
  8
0
 10
 97.32874 
 20
 44.1485137256149 
 30
 2.40015935755822 
  0
VERTEX
  8
0
 10
 103.55697 
 20
 44.3058331685668 
 30
 2.7095580506232 
  0
VERTEX
  8
0
 10
 109.4852 
 20
 44.66 
 30
 3.13 
  0
VERTEX
  8
0
 10
 116.963466666667 
 20
 45.3443583873615 
 30
 3.74033511271435 
  0
VERTEX
  8
0
 10
 124.441733333333 
 20
 46.2118154820792 
 30
 4.40154765691416 
  0
VERTEX
  8
0
 10
 131.62 
 20
 47.13 
 30
 5.06 
  0
VERTEX
  8
0
 10
 131.62 
 20
 76.35 
 30
 5.06 
  0
VERTEX
  8
0
 10
 124.441733333333 
 20
 77.2681845179208 
 30
 4.40154765691416 
  0
VERTEX
  8
0
 10
 116.963466666667 
 20
 78.1356416126385 
 30
 3.74033511271435 
  0
VERTEX
  8
0
 10
 109.4852 
 20
 78.82 
 30
 3.13 
  0
VERTEX
  8
0
 10
 103.55697 
 20
 79.1741668314332 
 30
 2.7095580506232 
  0
VERTEX
  8
0
 10
 97.32874 
 20
 79.3314862743851 
 30
 2.40015935755822 
  0
VERTEX
  8
0
 10
 91.10051 
 20
 79.24 
 30
 2.31 
  0
VERTEX
  8
0
 10
 82.00145 
 20
 78.5522574855263 
 30
 2.67343045234895 
  0
VERTEX
  8
0
 10
 72.60239 
 20
 76.8275049850035 
 30
 3.53263294738241 
  0
VERTEX
  8
0
 10
 63.20333 
 20
 73.67 
 30
 4.68 
  0
VERTEX
  8
0
 10
 56.4488866666667 
 20
 70.3651685761716 
 30
 5.57781458058603 
  0
VERTEX
  8
0
 10
 49.3944433333333 
 20
 66.2327292063739 
 30
 6.54604972044252 
  0
VERTEX
  8
0
 10
 42.34 
 20
 61.75 
 30
 7.53 
  0
VERTEX
  8
0
 10
 42.34 
 20
 61.73 
 30
 7.53 
  0
SEQEND
  0
POLYLINE
  8
0
 66
     1
 10
0.0
 20
0.0
 30
0.0
  0
VERTEX
  8
0
 10
 41.16 
 20
 61.73 
 30
 13.77 
  0
VERTEX
  8
0
 10
 48.6077766666667 
 20
 56.0603538596908 
 30
 13.3294528210614 
  0
VERTEX
  8
0
 10
 56.0555533333333 
 20
 50.8741516092191 
 30
 12.9108227906208 
  0
VERTEX
  8
0
 10
 63.20333 
 20
 46.8 
 30
 12.55 
  0
VERTEX
  8
0
 10
 72.60239 
 20
 43.2757161662545 
 30
 12.1499558479554 
  0
VERTEX
  8
0
 10
 82.00145 
 20
 41.5551532401887 
 30
 11.7796110601801 
  0
VERTEX
  8
0
 10
 91.10051 
 20
 41.16 
 30
 11.38 
  0
VERTEX
  8
0
 10
 97.32874 
 20
 41.3908878985954 
 30
 11.0582477672886 
  0
VERTEX
  8
0
 10
 103.55697 
 20
 41.9003408793469 
 30
 10.7242508780592 
  0
VERTEX
  8
0
 10
 109.4852 
 20
 42.55 
 30
 10.43 
  0
VERTEX
  8
0
 10
 116.963466666667 
 20
 43.4823892748587 
 30
 10.127637733096 
  0
VERTEX
  8
0
 10
 124.441733333333 
 20
 44.4890417877326 
 30
 9.885002602291 
  0
VERTEX
  8
0
 10
 131.62 
 20
 45.49 
 30
 9.68 
  0
VERTEX
  8
0
 10
 131.62 
 20
 77.99 
 30
 9.68 
  0
VERTEX
  8
0
 10
 124.441733333333 
 20
 78.9909582122674 
 30
 9.885002602291 
  0
VERTEX
  8
0
 10
 116.963466666667 
 20
 79.9976107251413 
 30
 10.127637733096 
  0
VERTEX
  8
0
 10
 109.4852 
 20
 80.93 
 30
 10.43 
  0
VERTEX
  8
0
 10
 103.55697 
 20
 81.5796591206531 
 30
 10.7242508780592 
  0
VERTEX
  8
0
 10
 97.32874 
 20
 82.0891121014046 
 30
 11.0582477672886 
  0
VERTEX
  8
0
 10
 91.10051 
 20
 82.32 
 30
 11.38 
  0
VERTEX
  8
0
 10
 82.00145 
 20
 81.9248467598113 
 30
 11.7796110601801 
  0
VERTEX
  8
0
 10
 72.60239 
 20
 80.2042838337455 
 30
 12.1499558479554 
  0
VERTEX
  8
0
 10
 63.20333 
 20
 76.68 
 30
 12.55 
  0
VERTEX
  8
0
 10
 56.0555533333333 
 20
 72.6058483907809 
 30
 12.9108227906208 
  0
VERTEX
  8
0
 10
 48.6077766666667 
 20
 67.4196461403092 
 30
 13.3294528210614 
  0
VERTEX
  8
0
 10
 41.16 
 20
 61.75 
 30
 13.77 
  0
VERTEX
  8
0
 10
 41.16 
 20
 61.73 
 30
 13.77 
  0
SEQEND
  0
POLYLINE
  8
0
 66
     1
 10
0.0
 20
0.0
 30
0.0
  0
VERTEX
  8
0
 10
 43.81 
 20
 61.73 
 30
 13.75 
  0
VERTEX
  8
0
 10
 50.3744433333333 
 20
 57.5796050113597 
 30
 13.5232144870949 
  0
VERTEX
  8
0
 10
 56.9388866666667 
 20
 53.687156952919 
 30
 13.3095672697601 
  0
VERTEX
  8
0
 10
 63.20333 
 20
 50.45 
 30
 13.13 
  0
VERTEX
  8
0
 10
 72.60239 
 20
 46.8179120925186 
 30
 12.9067782100082 
  0
VERTEX
  8
0
 10
 82.00145 
 20
 44.6231712599005 
 30
 12.6596224442629 
  0
VERTEX
  8
0
 10
 91.10051 
 20
 43.75 
 30
 12.3 
  0
VERTEX
  8
0
 10
 97.32874 
 20
 43.7794021839336 
 30
 11.9534571328412 
  0
VERTEX
  8
0
 10
 103.55697 
 20
 44.1543850686983 
 30
 11.5783418843147 
  0
VERTEX
  8
0
 10
 109.4852 
 20
 44.67 
 30
 11.26 
  0
VERTEX
  8
0
 10
 115.9568 
 20
 45.2597164789934 
 30
 11.0090965190091 
  0
VERTEX
  8
0
 10
 122.4284 
 20
 45.8486827452446 
 30
 10.8372910729869 
  0
VERTEX
  8
0
 10
 128.6 
 20
 46.41 
 30
 10.71 
  0
VERTEX
  8
0
 10
 128.6 
 20
 77.07 
 30
 10.71 
  0
VERTEX
  8
0
 10
 122.4284 
 20
 77.6313172547554 
 30
 10.8372910729869 
  0
VERTEX
  8
0
 10
 115.9568 
 20
 78.2202835210066 
 30
 11.0090965190091 
  0
VERTEX
  8
0
 10
 109.4852 
 20
 78.81 
 30
 11.26 
  0
VERTEX
  8
0
 10
 103.55697 
 20
 79.3256149313017 
 30
 11.5783418843147 
  0
VERTEX
  8
0
 10
 97.32874 
 20
 79.7005978160664 
 30
 11.9534571328412 
  0
VERTEX
  8
0
 10
 91.10051 
 20
 79.73 
 30
 12.3 
  0
VERTEX
  8
0
 10
 82.00145 
 20
 78.8568287400995 
 30
 12.6596224442629 
  0
VERTEX
  8
0
 10
 72.60239 
 20
 76.6620879074814 
 30
 12.9067782100082 
  0
VERTEX
  8
0
 10
 63.20333 
 20
 73.03 
 30
 13.13 
  0
VERTEX
  8
0
 10
 56.9388866666667 
 20
 69.7928430470811 
 30
 13.3095672697601 
  0
VERTEX
  8
0
 10
 50.3744433333333 
 20
 65.9003949886403 
 30
 13.5232144870949 
  0
VERTEX
  8
0
 10
 43.81 
 20
 61.75 
 30
 13.75 
  0
VERTEX
  8
0
 10
 43.81 
 20
 61.73 
 30
 13.75 
  0
SEQEND
  0
ENDSEC
  0
EOF
